  0
SECTION
  2
HEADER
  9
$ACADVER
  1
AC1009
  9
$INSBASE
 10
0.0
 20
0.0
 30
0.0
  9
$EXTMIN
 10
5.450516740846037
 20
52.55439117971991
 30
0.0
  9
$EXTMAX
 10
1516.69145762596
 20
786.0837504363496
 30
0.0
  9
$LIMMIN
 10
0.0
 20
0.0
  9
$LIMMAX
 10
420.0
 20
297.0
  9
$ORTHOMODE
 70
     0
  9
$REGENMODE
 70
     1
  9
$FILLMODE
 70
     1
  9
$QTEXTMODE
 70
     0
  9
$MIRRTEXT
 70
     0
  9
$DRAGMODE
 70
     2
  9
$LTSCALE
 40
1.0
  9
$OSMODE
 70
     0
  9
$ATTMODE
 70
     1
  9
$TEXTSIZE
 40
2.484999999999999
  9
$TRACEWID
 40
0.1
  9
$TEXTSTYLE
  7
STANDARD
  9
$CLAYER
  8
0
  9
$CELTYPE
  6
BYLAYER
  9
$CECOLOR
 62
   256
  9
$DIMSCALE
 40
1.0
  9
$DIMASZ
 40
2.5
  9
$DIMEXO
 40
1.0
  9
$DIMDLI
 40
8.0
  9
$DIMRND
 40
0.0
  9
$DIMDLE
 40
0.0
  9
$DIMEXE
 40
2.0
  9
$DIMTP
 40
0.1
  9
$DIMTM
 40
0.1
  9
$DIMTXT
 40
3.5
  9
$DIMCEN
 40
2.0
  9
$DIMTSZ
 40
0.0
  9
$DIMTOL
 70
     0
  9
$DIMLIM
 70
     0
  9
$DIMTIH
 70
     0
  9
$DIMTOH
 70
     0
  9
$DIMSE1
 70
     0
  9
$DIMSE2
 70
     0
  9
$DIMTAD
 70
     1
  9
$DIMZIN
 70
     8
  9
$DIMBLK
  1

  9
$DIMASO
 70
     1
  9
$DIMSHO
 70
     1
  9
$DIMPOST
  1

  9
$DIMAPOST
  1

  9
$DIMALT
 70
     0
  9
$DIMALTD
 70
     2
  9
$DIMALTF
 40
25.39999999999999
  9
$DIMLFAC
 40
1.0
  9
$DIMTOFL
 70
     1
  9
$DIMTVP
 40
0.0
  9
$DIMTIX
 70
     0
  9
$DIMSOXD
 70
     0
  9
$DIMSAH
 70
     0
  9
$DIMBLK1
  1

  9
$DIMBLK2
  1

  9
$DIMSTYLE
  2
GEN-ISO
  9
$DIMCLRD
 70
   256
  9
$DIMCLRE
 70
   256
  9
$DIMCLRT
 70
     2
  9
$DIMTFAC
 40
0.71
  9
$DIMGAP
 40
1.5
  9
$LUNITS
 70
     2
  9
$LUPREC
 70
     3
  9
$SKETCHINC
 40
0.1
  9
$FILLETRAD
 40
0.0
  9
$AUNITS
 70
     0
  9
$AUPREC
 70
     1
  9
$MENU
  1
genius
  9
$ELEVATION
 40
0.0
  9
$PELEVATION
 40
0.0
  9
$THICKNESS
 40
0.0
  9
$LIMCHECK
 70
     0
  9
$BLIPMODE
 70
     0
  9
$CHAMFERA
 40
2.5
  9
$CHAMFERB
 40
2.5
  9
$SKPOLY
 70
     1
  9
$TDCREATE
 40
2449955.299356597
  9
$TDUPDATE
 40
2450206.551671875
  9
$TDINDWG
 40
0.2005950231
  9
$TDUSRTIMER
 40
0.2005950231
  9
$USRTIMER
 70
     1
  9
$ANGBASE
 50
0.0
  9
$ANGDIR
 70
     0
  9
$PDMODE
 70
     0
  9
$PDSIZE
 40
0.0
  9
$PLINEWID
 40
0.0
  9
$COORDS
 70
     2
  9
$SPLFRAME
 70
     0
  9
$SPLINETYPE
 70
     6
  9
$SPLINESEGS
 70
     8
  9
$ATTDIA
 70
     1
  9
$ATTREQ
 70
     1
  9
$HANDLING
 70
     1
  9
$HANDSEED
  5
22850
  9
$SURFTAB1
 70
     6
  9
$SURFTAB2
 70
     6
  9
$SURFTYPE
 70
     6
  9
$SURFU
 70
     6
  9
$SURFV
 70
     6
  9
$UCSNAME
  2
AIT$ITEM
  9
$UCSORG
 10
0.0
 20
0.0
 30
0.0
  9
$UCSXDIR
 10
1.0
 20
0.0
 30
0.0
  9
$UCSYDIR
 10
0.0
 20
1.0
 30
0.0
  9
$PUCSNAME
  2

  9
$PUCSORG
 10
0.0
 20
0.0
 30
0.0
  9
$PUCSXDIR
 10
1.0
 20
0.0
 30
0.0
  9
$PUCSYDIR
 10
0.0
 20
1.0
 30
0.0
  9
$USERI1
 70
     0
  9
$USERI2
 70
     3
  9
$USERI3
 70
    15
  9
$USERI4
 70
     0
  9
$USERI5
 70
     0
  9
$USERR1
 40
1.0
  9
$USERR2
 40
1.0
  9
$USERR3
 40
0.0
  9
$USERR4
 40
1.0
  9
$USERR5
 40
0.0
  9
$WORLDVIEW
 70
     1
  9
$SHADEDGE
 70
     3
  9
$SHADEDIF
 70
    70
  9
$TILEMODE
 70
     1
  9
$MAXACTVP
 70
     4
  9
$PINSBASE
 10
0.0
 20
0.0
 30
0.0
  9
$PLIMCHECK
 70
     0
  9
$PEXTMIN
 10
1.000000000000000E+20
 20
1.000000000000000E+20
 30
1.000000000000000E+20
  9
$PEXTMAX
 10
-1.000000000000000E+20
 20
-1.000000000000000E+20
 30
-1.000000000000000E+20
  9
$PLIMMIN
 10
0.0
 20
0.0
  9
$PLIMMAX
 10
420.0
 20
297.0
  9
$UNITMODE
 70
     0
  9
$VISRETAIN
 70
     0
  9
$PLINEGEN
 70
     0
  9
$PSLTSCALE
 70
     0
  9
$TREEDEPTH
 70
  3020
  9
$DWGCODEPAGE
  3
dos850
  0
ENDSEC
  0
SECTION
  2
TABLES
  0
TABLE
  2
VPORT
 70
     2
  0
VPORT
  2
*ACTIVE
 70
     0
 10
0.0
 20
0.0
 11
1.0
 21
1.0
 12
46.81556844568549
 22
84.57450846402721
 13
0.0
 23
0.0
 14
1.0
 24
1.0
 15
10.0
 25
10.0
 16
0.0
 26
0.0
 36
1.0
 17
0.0
 27
0.0
 37
0.0
 40
64.04023456861459
 41
1.275675675675675
 42
50.0
 43
0.0
 44
0.0
 50
0.0
 51
0.0
 71
     0
 72
   100
 73
     1
 74
     0
 75
     0
 76
     0
 77
     0
 78
     0
  0
ENDTAB
  0
TABLE
  2
LTYPE
 70
     3
  0
LTYPE
  2
CONTINUOUS
 70
    64
  3
Solid line
 72
    65
 73
     0
 40
0.0
  0
LTYPE
  2
GEN7
 70
    64
  3
____ . ____ . ____ . ____ . ____ . ____ . ____
 72
    65
 73
     4
 40
15.0
 49
10.0
 49
-2.5
 49
0.0
 49
-2.5
  0
LTYPE
  2
GEN
 70
    64
  3
----------------------
 72
    65
 73
     2
 40
10000000000.0
 49
0.0
 49
10000000000.0
  0
ENDTAB
  0
TABLE
  2
LAYER
 70
     6
  0
LAYER
  2
0
 70
    64
 62
     7
  6
GEN
  0
LAYER
  2
8
 70
    64
 62
     1
  6
GEN
  0
LAYER
  2
7
 70
    64
 62
     4
  6
GEN7
  0
LAYER
  2
6
 70
    64
 62
     2
  6
GEN
  0
LAYER
  2
4
 70
    64
 62
     3
  6
GEN
  0
LAYER
  2
AIT$HILFE
 70
    64
 62
     3
  6
CONTINUOUS
  0
ENDTAB
  0
TABLE
  2
STYLE
 70
     2
  0
STYLE
  2
STANDARD
 70
    64
 40
0.0
 41
1.0
 50
0.0
 71
     0
 42
2.484999999999999
  3
GENISO
  4

  0
STYLE
  2
AIT$TSTIL
 70
    64
 40
0.0
 41
0.8
 50
0.0
 71
     0
 42
3.5
  3
iso8
  4

  0
ENDTAB
  0
TABLE
  2
VIEW
 70
     5
  0
VIEW
  2
1
 70
     0
 40
148.5
 10
102.6438835671342
 20
217.7479
 41
175.2835671342685
 11
0.0
 21
0.0
 31
1.0
 12
0.0
 22
0.0
 32
0.0
 42
50.0
 43
0.0
 44
0.0
 50
0.0
 71
     0
  0
VIEW
  2
2
 70
     0
 40
148.5
 10
117.3561164328657
 20
217.7479
 41
175.2835671342685
 11
0.0
 21
0.0
 31
1.0
 12
0.0
 22
0.0
 32
0.0
 42
50.0
 43
0.0
 44
0.0
 50
0.0
 71
     0
  0
VIEW
  2
3
 70
     0
 40
148.5
 10
102.6438835671342
 20
79.25210000000001
 41
175.2835671342685
 11
0.0
 21
0.0
 31
1.0
 12
0.0
 22
0.0
 32
0.0
 42
50.0
 43
0.0
 44
0.0
 50
0.0
 71
     0
  0
VIEW
  2
4
 70
     0
 40
148.5
 10
117.3561164328657
 20
79.25210000000001
 41
175.2835671342685
 11
0.0
 21
0.0
 31
1.0
 12
0.0
 22
0.0
 32
0.0
 42
50.0
 43
0.0
 44
0.0
 50
0.0
 71
     0
  0
VIEW
  2
5
 70
     0
 40
148.5
 10
105.0
 20
148.5
 41
175.2835671342685
 11
0.0
 21
0.0
 31
1.0
 12
0.0
 22
0.0
 32
0.0
 42
50.0
 43
0.0
 44
0.0
 50
0.0
 71
     0
  0
ENDTAB
  0
TABLE
  2
UCS
 70
     1
  0
UCS
  2
AIT$ITEM
 70
     0
 10
0.0
 20
0.0
 30
0.0
 11
1.0
 21
0.0
 31
0.0
 12
0.0
 22
1.0
 32
0.0
  0
ENDTAB
  0
TABLE
  2
APPID
 70
     9
  0
APPID
  2
ACAD
 70
    64
  0
ENDTAB
  0
TABLE
  2
DIMSTYLE
 70
     1
  0
DIMSTYLE
  2
GEN-ISO
 70
     0
  3

  4

  5

  6

  7

 40
1.0
 41
2.5
 42
1.0
 43
8.0
 44
2.0
 45
0.0
 46
0.0
 47
0.1
 48
0.1
140
3.5
141
2.0
142
0.0
143
25.39999999999999
144
1.0
145
0.0
146
0.71
147
1.5
 71
     0
 72
     0
 73
     0
 74
     0
 75
     0
 76
     0
 77
     1
 78
     8
170
     0
171
     2
172
     1
173
     0
174
     0
175
     0
176
   256
177
   256
178
     2
  0
ENDTAB
  0
ENDSEC
  0
SECTION
  2
BLOCKS
  0
BLOCK
  8
0
  5
11B
  2
AIT$MERK
 70
    66
 10
0.0
 20
0.0
 30
0.0
  3
AIT$MERK
  0
ATTDEF
  8
AIT$HILFE
  5
24D
 10
0.8310912943111077
 20
-26.76290463692043
 30
0.0
 40
2.0
  1

  3
HAUPTMENÜ
  2
AIT$HAUTPMENUE
 70
     1
 41
0.8
  7
AIT$TSTIL
  0
ATTDEF
  8
AIT$HILFE
  5
24E
 10
0.8310912943111077
 20
-23.76290463692043
 30
0.0
 40
2.0
  1

  3
MAßSTABFAKTOR
  2
AIT$MASSTABSFAKTOR
 70
     1
 41
0.8
  7
AIT$TSTIL
  0
ATTDEF
  8
AIT$HILFE
  5
24F
 10
0.8310912943111077
 20
-20.76290463692043
 30
0.0
 40
2.0
  1

  3
LETZTE POSITION
  2
AIT$LETZTE-POSITION
 70
     1
 41
0.8
  7
AIT$TSTIL
  0
ATTDEF
  8
AIT$HILFE
  5
250
 10
0.8310912943111077
 20
-17.76290463692043
 30
0.0
 40
2.0
  1

  3
BEM. NACHKOMMA
  2
AIT$MERKER-4
 70
     1
 41
0.8
  7
AIT$TSTIL
  0
ATTDEF
  8
AIT$HILFE
  5
251
 10
0.8310912943111077
 20
-14.76290463692043
 30
0.0
 40
2.0
  1

  3
POS. NEU SORT. 0/1
  2
AIT$MERKER-5
 70
     1
 41
0.8
  7
AIT$TSTIL
  0
ATTDEF
  8
AIT$HILFE
  5
252
 10
0.8310912943111077
 20
-11.76290463692043
 30
0.0
 40
2.0
  1

  3
ML3-STÜCKLISTE 0/1
  2
AIT$MERKER-6
 70
     1
 41
0.8
  7
AIT$TSTIL
  0
ATTDEF
  8
AIT$HILFE
  5
253
 10
0.8310912943111077
 20
-8.762904636920433
 30
0.0
 40
2.0
  1

  3
MERKER-7
  2
AIT$MERKER-7
 70
     1
 41
0.8
  7
AIT$TSTIL
  0
ATTDEF
  8
AIT$HILFE
  5
254
 10
0.8310912943111077
 20
-5.762904636920433
 30
0.0
 40
2.0
  1

  3
MERKER-8
  2
AIT$MERKER-8
 70
     1
 41
0.8
  7
AIT$TSTIL
  0
ATTDEF
  8
AIT$HILFE
  5
255
 10
0.8310912943111077
 20
-2.762904636920433
 30
0.0
 40
2.0
  1

  3
MERKER-9
  2
AIT$MERKER-9
 70
     1
 41
0.8
  7
AIT$TSTIL
  0
ENDBLK
  8
0
  5
257
  0
ENDSEC
  0
SECTION
  2
ENTITIES
  0
INSERT
  8
0
  5
258
 66
     1
  2
AIT$MERK
 10
0.0
 20
0.0
 30
0.0
  0
ATTRIB
  8
AIT$HILFE
  5
259
 10
0.8310912943111077
 20
-26.76290463692043
 30
0.0
 40
2.0
  1
genius11
  2
AIT$HAUTPMENUE
 70
     1
 41
0.8
  7
AIT$TSTIL
  0
ATTRIB
  8
AIT$HILFE
  5
25A
 10
0.8310912943111077
 20
-23.76290463692043
 30
0.0
 40
2.0
  1
1.0
  2
AIT$MASSTABSFAKTOR
 70
     1
 41
0.8
  7
AIT$TSTIL
  0
ATTRIB
  8
AIT$HILFE
  5
25B
 10
0.8310912943111077
 20
-20.76290463692043
 30
0.0
 40
2.0
  1
0
  2
AIT$LETZTE-POSITION
 70
     1
 41
0.8
  7
AIT$TSTIL
  0
ATTRIB
  8
AIT$HILFE
  5
25C
 10
0.8310912943111077
 20
-17.76290463692043
 30
0.0
 40
2.0
  1
0
  2
AIT$MERKER-4
 70
     1
 41
0.8
  7
AIT$TSTIL
  0
ATTRIB
  8
AIT$HILFE
  5
25D
 10
0.8310912943111077
 20
-14.76290463692043
 30
0.0
 40
2.0
  1
0
  2
AIT$MERKER-5
 70
     1
 41
0.8
  7
AIT$TSTIL
  0
ATTRIB
  8
AIT$HILFE
  5
25E
 10
0.8310912943111077
 20
-11.76290463692043
 30
0.0
 40
2.0
  1
1
  2
AIT$MERKER-6
 70
     1
 41
0.8
  7
AIT$TSTIL
  0
ATTRIB
  8
AIT$HILFE
  5
25F
 10
0.8310912943111077
 20
-8.762904636920433
 30
0.0
 40
2.0
  1
-
  2
AIT$MERKER-7
 70
     1
 41
0.8
  7
AIT$TSTIL
  0
ATTRIB
  8
AIT$HILFE
  5
260
 10
0.8310912943111077
 20
-5.762904636920433
 30
0.0
 40
2.0
  1
-
  2
AIT$MERKER-8
 70
     1
 41
0.8
  7
AIT$TSTIL
  0
ATTRIB
  8
AIT$HILFE
  5
261
 10
0.8310912943111077
 20
-2.762904636920433
 30
0.0
 40
2.0
  1
-
  2
AIT$MERKER-9
 70
     1
 41
0.8
  7
AIT$TSTIL
  0
SEQEND
  8
0
  5
262
  0
INSERT
  8
0
  5
2005E
 66
     1
  2
AIT$MERK
 10
661.9785726808445
 20
7.923020880773322
 30
0.0
  0
ATTRIB
  8
AIT$HILFE
  5
2005F
 10
662.8096639751555
 20
-18.8398837561471
 30
0.0
 40
2.0
  1
genius11
  2
AIT$HAUTPMENUE
 70
     1
 41
0.8
  7
AIT$TSTIL
  0
ATTRIB
  8
AIT$HILFE
  5
20060
 10
662.8096639751555
 20
-15.8398837561471
 30
0.0
 40
2.0
  1
1.0
  2
AIT$MASSTABSFAKTOR
 70
     1
 41
0.8
  7
AIT$TSTIL
  0
ATTRIB
  8
AIT$HILFE
  5
20061
 10
662.8096639751555
 20
-12.8398837561471
 30
0.0
 40
2.0
  1
0
  2
AIT$LETZTE-POSITION
 70
     1
 41
0.8
  7
AIT$TSTIL
  0
ATTRIB
  8
AIT$HILFE
  5
20062
 10
662.8096639751555
 20
-9.839883756147109
 30
0.0
 40
2.0
  1
0
  2
AIT$MERKER-4
 70
     1
 41
0.8
  7
AIT$TSTIL
  0
ATTRIB
  8
AIT$HILFE
  5
20063
 10
662.8096639751555
 20
-6.839883756147111
 30
0.0
 40
2.0
  1
0
  2
AIT$MERKER-5
 70
     1
 41
0.8
  7
AIT$TSTIL
  0
ATTRIB
  8
AIT$HILFE
  5
20064
 10
662.8096639751555
 20
-3.839883756147111
 30
0.0
 40
2.0
  1
1
  2
AIT$MERKER-6
 70
     1
 41
0.8
  7
AIT$TSTIL
  0
ATTRIB
  8
AIT$HILFE
  5
20065
 10
662.8096639751555
 20
-0.8398837561471115
 30
0.0
 40
2.0
  1
-
  2
AIT$MERKER-7
 70
     1
 41
0.8
  7
AIT$TSTIL
  0
ATTRIB
  8
AIT$HILFE
  5
20066
 10
662.8096639751555
 20
2.160116243852888
 30
0.0
 40
2.0
  1
-
  2
AIT$MERKER-8
 70
     1
 41
0.8
  7
AIT$TSTIL
  0
ATTRIB
  8
AIT$HILFE
  5
20067
 10
662.8096639751555
 20
5.160116243852888
 30
0.0
 40
2.0
  1
-
  2
AIT$MERKER-9
 70
     1
 41
0.8
  7
AIT$TSTIL
  0
SEQEND
  8
0
  5
20068
  0
TEXT
  8
6
  5
20157
 10
1246.112605758335
 20
511.9259698342435
 30
0.0
 40
3.5
  1
  
  0
TEXT
  8
6
  5
20158
 10
1246.112605758335
 20
501.9259698342435
 30
0.0
 40
3.5
  1
  
  0
TEXT
  8
6
  5
20159
 10
1246.112605758335
 20
491.9259698342435
 30
0.0
 40
3.5
  1
  
  0
TEXT
  8
6
  5
2015A
 10
1516.69145762596
 20
764.0837504363496
 30
0.0
 40
3.5
  1
   
  0
TEXT
  8
6
  5
2015B
 10
1516.69145762596
 20
775.0837504363496
 30
0.0
 40
3.5
  1
   
  0
TEXT
  8
6
  5
2015C
 10
1516.69145762596
 20
786.0837504363496
 30
0.0
 40
3.5
  1
   
  0
TEXT
  8
6
  5
2015D
 10
1060.496438731658
 20
494.2330974039643
 30
0.0
 40
3.5
  1
   
  0
TEXT
  8
6
  5
2015E
 10
1060.496438731658
 20
505.2330974039643
 30
0.0
 40
3.5
  1
   
  0
TEXT
  8
6
  5
2015F
 10
1060.496438731658
 20
516.2330974039643
 30
0.0
 40
3.5
  1
   
  0
LINE
  8
0
  5
207F5
 10
20.04328369381234
 20
100.8701718630245
 30
0.0
 11
31.64328369381233
 21
100.8701718630246
 31
0.0
  0
LINE
  8
0
  5
207F6
 10
31.84328369381232
 20
100.6701718630246
 30
0.0
 11
31.84328369381232
 21
98.8701718630246
 31
0.0
  0
ARC
  8
0
  5
207F7
 10
32.34328369381232
 20
98.8701718630246
 30
0.0
 40
0.5
 50
180.0
 51
270.0
  0
ARC
  8
0
  5
207F8
 10
31.64328369381233
 20
100.6701718630246
 30
0.0
 40
0.2
 50
0.0
 51
90.0
  0
ARC
  8
0
  5
207F9
 10
19.34328369381232
 20
98.8701718630246
 30
0.0
 40
0.5
 50
270.0
 51
0.0
  0
ARC
  8
0
  5
207FA
 10
20.04328369381234
 20
100.6701718630246
 30
0.0
 40
0.2
 50
90.0
 51
180.0
  0
LINE
  8
0
  5
207FB
 10
19.84328369381232
 20
100.6701718630246
 30
0.0
 11
19.84328369381232
 21
98.8701718630246
 31
0.0
  0
LINE
  8
0
  5
20802
 10
34.59328369381232
 20
109.7527901448533
 30
0.0
 11
34.59328369381232
 21
105.8701718630246
 31
0.0
  0
ARC
  8
0
  5
20803
 10
17.5932836938224
 20
109.7527901448451
 30
0.0
 40
0.5000000000100897
 50
115.9444797740781
 51
180.0
  0
ARC
  8
0
  5
20804
 10
15.8432836937892
 20
113.3496637873359
 30
0.0
 40
3.500000000010072
 50
295.9444797725701
 51
244.0555202281105
  0
ARC
  8
0
  5
20805
 10
14.09328369381239
 20
109.7527901448289
 30
0.0
 40
0.4999999999999804
 50
0.0
 51
64.05552022777558
  0
LINE
  8
0
  5
20806
 10
14.59328369381239
 20
109.7527901448289
 30
0.0
 11
14.59328369381239
 21
105.8701718630244
 31
0.0
  0
LINE
  8
0
  5
20807
 10
5.968283693812395
 20
100.8701718630243
 30
0.0
 11
5.968283693812395
 21
99.37017186302463
 31
0.0
  0
ARC
  8
0
  5
20808
 10
6.968283693812395
 20
99.37017186302463
 30
0.0
 40
1.0
 50
180.0
 51
270.0
  0
LINE
  8
0
  5
20809
 10
6.968283693812395
 20
98.37017186302463
 30
0.0
 11
19.34328369381232
 21
98.3701718630246
 31
0.0
  0
LINE
  8
0
  5
2080A
 10
37.09328369381232
 20
105.8701718630249
 30
0.0
 11
37.09328369381232
 21
109.7527901448269
 31
0.0
  0
ARC
  8
0
  5
2080B
 10
37.59328369381232
 20
109.7527901448269
 30
0.0
 40
0.5000000000000284
 50
115.94447977222
 51
180.0
  0
ARC
  8
0
  5
2080C
 10
35.8432836938375
 20
113.3496637873359
 30
0.0
 40
3.500000000011048
 50
295.9444797718446
 51
244.0555202272943
  0
ARC
  8
0
  5
2080D
 10
34.09328369380124
 20
109.7527901448445
 30
0.0
 40
0.5000000000110392
 50
359.9999999979774
 51
0.0
  0
LINE
  8
0
  5
2080E
 10
12.09328369381239
 20
103.3701718630244
 30
0.0
 11
8.468283693812324
 21
103.3701718630243
 31
0.0
  0
ARC
  8
0
  5
2080F
 10
12.09328369381239
 20
105.8701718630244
 30
0.0
 40
2.5
 50
270.0000000000007
 51
0.0
  0
ARC
  8
0
  5
20811
 10
32.09328369381215
 20
105.8701718630246
 30
0.0
 40
2.5
 50
269.9999999999989
 51
0.0
  0
LINE
  8
0
  5
20812
 10
39.59328369381215
 20
103.3701718630249
 30
0.0
 11
43.21828369381226
 21
103.370171863025
 31
0.0
  0
ARC
  8
0
  5
20813
 10
39.59328369381209
 20
105.8701718630249
 30
0.0
 40
2.5
 50
180.0
 51
270.0000000000012
  0
ARC
  8
0
  5
20815
 10
8.468283693812395
 20
100.8701718630243
 30
0.0
 40
2.5
 50
90.00000000000156
 51
180.0
  0
ARC
  8
0
  5
20816
 10
19.59328369381228
 20
105.8701718630244
 30
0.0
 40
2.5
 50
179.9999999999974
 51
270.000000000001
  0
LINE
  8
0
  5
20817
 10
17.09328369381223
 20
105.8701718630245
 30
0.0
 11
17.09328369381239
 21
109.7527901448451
 31
0.0
  0
ARC
  8
0
  5
2081D
 10
43.21828369381232
 20
100.8701718630243
 30
0.0
 40
2.5
 50
0.0
 51
90.00000000000103
  0
ARC
  8
0
  5
2081F
 10
44.71828369381232
 20
99.37017186302463
 30
0.0
 40
1.0
 50
270.0
 51
0.0
  0
LINE
  8
0
  5
20820
 10
45.71828369381232
 20
100.8701718630243
 30
0.0
 11
45.71828369381232
 21
99.37017186302463
 31
0.0
  0
ARC
  8
0
  5
20823
 10
34.09328369381232
 20
109.7527901448533
 30
0.0
 40
0.5
 50
0.0
 51
64.0555202272926
  0
LINE
  8
0
  5
20824
 10
19.59328369381232
 20
103.3701718630244
 30
0.0
 11
25.54328369381232
 21
103.3701718630245
 31
0.0
  0
LINE
  8
0
  5
20825
 10
32.34328369381232
 20
98.3701718630246
 30
0.0
 11
32.62074291072433
 21
98.3701718630246
 31
0.0
  0
LINE
  8
7
  5
20847
 10
25.84328369381229
 20
108.4056154877143
 30
0.0
 11
25.84328369381229
 21
95.51867573543907
 31
0.0
  0
ARC
  8
0
  5
20848
 10
25.84328369381232
 20
103.2901718630245
 30
0.0
 40
0.12
 50
232.3320633511364
 51
307.6679366488651
  0
LINE
  8
0
  5
20849
 10
25.54328369381232
 20
103.3701718630245
 30
0.0
 11
25.76995359376928
 21
103.1951839878631
 31
0.0
  0
LINE
  8
0
  5
2084A
 10
26.14328369381233
 20
103.3701718630245
 30
0.0
 11
25.91661379385537
 21
103.1951839878631
 31
0.0
  0
LINE
  8
0
  5
20944
 10
26.14328369381233
 20
103.3701718630245
 30
0.0
 11
32.09328369381209
 21
103.3701718630246
 31
0.0
  0
LINE
  8
0
  5
20A13
 10
32.34328369381232
 20
98.3701718630246
 30
0.0
 11
44.71828369381232
 21
98.37017186302463
 31
0.0
  0
LINE
  8
0
  5
20AC4
 10
5.968283693812395
 20
86.55439117971988
 30
0.0
 11
5.968283693812395
 21
52.55439117971991
 31
0.0
  0
LINE
  8
0
  5
20AC5
 10
45.71828369381232
 20
86.55439117971988
 30
0.0
 11
45.71828369381232
 21
52.55439117971991
 31
0.0
  0
LINE
  8
4
  5
20ACA
 10
8.468283693812324
 20
86.55439117971988
 30
0.0
 11
8.468283693812324
 21
52.55439117971991
 31
0.0
  0
LINE
  8
0
  5
20ACB
 10
12.34328369377912
 20
86.55439117971988
 30
0.0
 11
12.34328369377912
 21
52.55439117971991
 31
0.0
  0
LINE
  8
0
  5
20ACC
 10
19.34328369379927
 20
86.55439117971988
 30
0.0
 11
19.34328369379927
 21
52.55439117971991
 31
0.0
  0
LINE
  8
0
  5
20ACD
 10
25.54328369381234
 20
86.55439117971991
 30
0.0
 11
25.54328369381232
 21
73.04151033455244
 31
0.0
  0
LINE
  8
4
  5
20ACE
 10
19.59328369381232
 20
86.55439117971988
 30
0.0
 11
19.59328369381232
 21
52.55439117971991
 31
0.0
  0
CIRCLE
  8
0
  5
20ACF
 10
25.84328369381229
 20
69.55439117971991
 30
0.0
 40
3.5
  0
LINE
  8
0
  5
20AD0
 10
25.54328369381232
 20
66.06727202488738
 30
0.0
 11
25.54328369381234
 21
52.55439117971991
 31
0.0
  0
LINE
  8
0
  5
20AD1
 10
26.14328369381227
 20
86.55439117971991
 30
0.0
 11
26.14328369381227
 21
73.04151033455244
 31
0.0
  0
LINE
  8
4
  5
20AD3
 10
32.09328369381228
 20
86.55439117971988
 30
0.0
 11
32.09328369381226
 21
52.55439117971991
 31
0.0
  0
LINE
  8
0
  5
20AD4
 10
32.34328369382531
 20
86.55439117971988
 30
0.0
 11
32.34328369382532
 21
52.55439117971991
 31
0.0
  0
LINE
  8
0
  5
20AD5
 10
39.34328369384549
 20
86.55439117971988
 30
0.0
 11
39.34328369384549
 21
52.55439117971991
 31
0.0
  0
LINE
  8
4
  5
20AD6
 10
43.21828369381226
 20
86.55439117971988
 30
0.0
 11
43.21828369381226
 21
52.55439117971991
 31
0.0
  0
LINE
  8
0
  5
20AD7
 10
26.14328369381227
 20
66.06727202488738
 30
0.0
 11
26.14328369381227
 21
52.55439117971991
 31
0.0
  0
LINE
  8
0
  5
20AE6
 10
22.34328369381229
 20
103.3701718630244
 30
0.0
 11
22.34328369381229
 21
100.8701718630245
 31
0.0
  0
LINE
  8
0
  5
20AE7
 10
29.34328369381229
 20
103.3701718630245
 30
0.0
 11
29.34328369381229
 21
100.8701718630246
 31
0.0
  0
POLYLINE
  8
4
  5
20AE8
 66
     1
 10
0.0
 20
0.0
 30
0.0
 70
     4
 75
     6
  0
VERTEX
  8
4
  5
20AE9
 10
19.39154543936989
 20
103.3783248218329
 30
0.0
 70
    16
  0
VERTEX
  8
4
  5
20AEF
 10
19.39154543936989
 20
103.3783248218329
 30
0.0
 70
     8
  0
VERTEX
  8
4
  5
20AF0
 10
19.51308810927355
 20
103.0612470345101
 30
0.0
 70
     8
  0
VERTEX
  8
4
  5
20AF1
 10
19.6067526190983
 20
102.7890569559112
 30
0.0
 70
     8
  0
VERTEX
  8
4
  5
20AF2
 10
19.67634258994614
 20
102.5579495376987
 30
0.0
 70
     8
  0
VERTEX
  8
4
  5
20AF3
 10
19.72566164291903
 20
102.364119731535
 30
0.0
 70
     8
  0
VERTEX
  8
4
  5
20AF4
 10
19.75851339911896
 20
102.2037624890823
 30
0.0
 70
     8
  0
VERTEX
  8
4
  5
20AF5
 10
19.77870147964794
 20
102.0730727620031
 30
0.0
 70
     8
  0
VERTEX
  8
4
  5
20AF6
 10
19.7900295056079
 20
101.9682455019596
 30
0.0
 70
     8
  0
VERTEX
  8
4
  5
20AF7
 10
19.79630109810086
 20
101.8854756606143
 30
0.0
 70
     8
  0
VERTEX
  8
4
  5
20AF8
 10
19.80116832926073
 20
101.8196093491228
 30
0.0
 70
     8
  0
VERTEX
  8
4
  5
20AF9
 10
19.80767707534904
 20
101.7600973166139
 30
0.0
 70
     8
  0
VERTEX
  8
4
  5
20AFA
 10
19.81872166365931
 20
101.6950414717094
 30
0.0
 70
     8
  0
VERTEX
  8
4
  5
20AFB
 10
19.83719642148504
 20
101.6125437230315
 30
0.0
 70
     8
  0
VERTEX
  8
4
  5
20AFC
 10
19.8659956761197
 20
101.500705979202
 30
0.0
 70
     8
  0
VERTEX
  8
4
  5
20AFD
 10
19.90801375485683
 20
101.3476301488431
 30
0.0
 70
     8
  0
VERTEX
  8
4
  5
20AFE
 10
19.96614498498986
 20
101.1414181405766
 30
0.0
 70
     8
  0
VERTEX
  8
4
  5
20AFF
 10
20.04328369381234
 20
100.8701718630246
 30
0.0
 70
     8
  0
VERTEX
  8
4
  5
20AEA
 10
19.75621110241992
 20
102.469551512151
 30
0.0
 70
    16
  0
VERTEX
  8
4
  5
20AEB
 10
19.80966442999452
 20
101.6907837101021
 30
0.0
 70
    16
  0
VERTEX
  8
4
  5
20AEC
 10
19.80966442999452
 20
101.6907837101021
 30
0.0
 70
    16
  0
VERTEX
  8
4
  5
20AED
 10
20.04328369381234
 20
100.8701718630246
 30
0.0
 70
    16
  0
SEQEND
  8
4
  5
20AEE
  0
POLYLINE
  8
4
  5
20B00
 66
     1
 10
0.0
 20
0.0
 30
0.0
 70
     4
 75
     6
  0
VERTEX
  8
4
  5
20B01
 10
32.29502194825469
 20
103.3783248218329
 30
0.0
 70
    16
  0
VERTEX
  8
4
  5
20B02
 10
32.29502194825469
 20
103.3783248218329
 30
0.0
 70
     8
  0
VERTEX
  8
4
  5
20B03
 10
32.17347927835105
 20
103.0612470345101
 30
0.0
 70
     8
  0
VERTEX
  8
4
  5
20B04
 10
32.0798147685263
 20
102.7890569559112
 30
0.0
 70
     8
  0
VERTEX
  8
4
  5
20B05
 10
32.01022479767847
 20
102.5579495376987
 30
0.0
 70
     8
  0
VERTEX
  8
4
  5
20B06
 10
31.96090574470557
 20
102.364119731535
 30
0.0
 70
     8
  0
VERTEX
  8
4
  5
20B07
 10
31.92805398850562
 20
102.2037624890823
 30
0.0
 70
     8
  0
VERTEX
  8
4
  5
20B08
 10
31.90786590797667
 20
102.0730727620031
 30
0.0
 70
     8
  0
VERTEX
  8
4
  5
20B09
 10
31.89653788201668
 20
101.9682455019596
 30
0.0
 70
     8
  0
VERTEX
  8
4
  5
20B0A
 10
31.89026628952372
 20
101.8854756606143
 30
0.0
 70
     8
  0
VERTEX
  8
4
  5
20B0B
 10
31.88539905836388
 20
101.8196093491228
 30
0.0
 70
     8
  0
VERTEX
  8
4
  5
20B0C
 10
31.87889031227555
 20
101.7600973166139
 30
0.0
 70
     8
  0
VERTEX
  8
4
  5
20B0D
 10
31.86784572396528
 20
101.6950414717094
 30
0.0
 70
     8
  0
VERTEX
  8
4
  5
20B0E
 10
31.84937096613955
 20
101.6125437230315
 30
0.0
 70
     8
  0
VERTEX
  8
4
  5
20B0F
 10
31.82057171150488
 20
101.500705979202
 30
0.0
 70
     8
  0
VERTEX
  8
4
  5
20B10
 10
31.77855363276778
 20
101.3476301488431
 30
0.0
 70
     8
  0
VERTEX
  8
4
  5
20B11
 10
31.72042240263472
 20
101.1414181405766
 30
0.0
 70
     8
  0
VERTEX
  8
4
  5
20B12
 10
31.64328369381225
 20
100.8701718630246
 30
0.0
 70
     8
  0
VERTEX
  8
4
  5
20B13
 10
31.93035628520466
 20
102.469551512151
 30
0.0
 70
    16
  0
VERTEX
  8
4
  5
20B14
 10
31.87690295763007
 20
101.6907837101021
 30
0.0
 70
    16
  0
VERTEX
  8
4
  5
20B15
 10
31.87690295763007
 20
101.6907837101021
 30
0.0
 70
    16
  0
VERTEX
  8
4
  5
20B16
 10
31.64328369381225
 20
100.8701718630246
 30
0.0
 70
    16
  0
SEQEND
  8
4
  5
20B17
  0
LINE
  8
8
  5
20B30
 10
21.89442986911942
 20
100.8701718630245
 30
0.0
 11
22.34328369381229
 21
101.3190256877174
 31
0.0
  0
LINE
  8
8
  5
20B31
 10
21.01054639263622
 20
100.8701718630245
 30
0.0
 11
22.34328369381229
 21
102.2029091642006
 31
0.0
  0
LINE
  8
8
  5
20B32
 10
20.12666291615303
 20
100.8701718630245
 30
0.0
 11
22.34328369381229
 21
103.0867926406837
 31
0.0
  0
LINE
  8
8
  5
20B33
 10
19.86757175426592
 20
101.4949641776206
 30
0.0
 11
21.74277943966971
 21
103.3701718630244
 31
0.0
  0
LINE
  8
8
  5
20B34
 10
19.74728671363443
 20
102.2585626134723
 30
0.0
 11
20.85889596318652
 21
103.3701718630244
 31
0.0
  0
LINE
  8
8
  5
20B35
 10
19.55225839223849
 20
102.9474177685595
 30
0.0
 11
19.97501248670333
 21
103.3701718630244
 31
0.0
  0
LINE
  8
8
  5
20B37
 10
29.34328369381229
 20
103.0157248288183
 30
0.0
 11
29.69773072801854
 21
103.3701718630245
 31
0.0
  0
LINE
  8
8
  5
20B38
 10
29.34328369381229
 20
102.1318413523351
 30
0.0
 11
30.58161420450174
 21
103.3701718630245
 31
0.0
  0
LINE
  8
8
  5
20B39
 10
29.34328369381229
 20
101.2479578758519
 30
0.0
 11
31.46549768098493
 21
103.3701718630246
 31
0.0
  0
LINE
  8
8
  5
20B3A
 10
29.84938115746815
 20
100.8701718630246
 30
0.0
 11
32.25616501092746
 21
103.2769557164839
 31
0.0
  0
LINE
  8
8
  5
20B3B
 10
30.73326463395135
 20
100.8701718630246
 30
0.0
 11
31.90443722870169
 21
102.041344457775
 31
0.0
  0
LINE
  8
8
  5
20B3C
 10
31.61714811043454
 20
100.8701718630246
 30
0.0
 11
31.6536700232546
 21
100.9066937758447
 31
0.0
  0
LINE
  8
0
  5
20B5C
 10
5.968283693812395
 20
86.55439117971991
 30
0.0
 11
45.71828369381232
 21
86.55439117971991
 31
0.0
  0
LINE
  8
0
  5
20B5D
 10
5.968283693812395
 20
52.55439117971991
 30
0.0
 11
45.71828369381232
 21
52.55439117971991
 31
0.0
  0
INSERT
  8
0
  5
20C31
 66
     1
  2
AIT$MERK
 10
-644.6803314587531
 20
-220.3312638547886
 30
0.0
  0
ATTRIB
  8
AIT$HILFE
  5
20C32
 10
-643.8492401644419
 20
-247.094168491709
 30
0.0
 40
2.0
  1
genius11
  2
AIT$HAUTPMENUE
 70
     1
 41
0.8
  7
AIT$TSTIL
  0
ATTRIB
  8
AIT$HILFE
  5
20C33
 10
-643.8492401644419
 20
-244.094168491709
 30
0.0
 40
2.0
  1
1.0
  2
AIT$MASSTABSFAKTOR
 70
     1
 41
0.8
  7
AIT$TSTIL
  0
ATTRIB
  8
AIT$HILFE
  5
20C34
 10
-643.8492401644419
 20
-241.094168491709
 30
0.0
 40
2.0
  1
0
  2
AIT$LETZTE-POSITION
 70
     1
 41
0.8
  7
AIT$TSTIL
  0
ATTRIB
  8
AIT$HILFE
  5
20C35
 10
-643.8492401644419
 20
-238.094168491709
 30
0.0
 40
2.0
  1
0
  2
AIT$MERKER-4
 70
     1
 41
0.8
  7
AIT$TSTIL
  0
ATTRIB
  8
AIT$HILFE
  5
20C36
 10
-643.8492401644419
 20
-235.094168491709
 30
0.0
 40
2.0
  1
0
  2
AIT$MERKER-5
 70
     1
 41
0.8
  7
AIT$TSTIL
  0
ATTRIB
  8
AIT$HILFE
  5
20C37
 10
-643.8492401644419
 20
-232.094168491709
 30
0.0
 40
2.0
  1
1
  2
AIT$MERKER-6
 70
     1
 41
0.8
  7
AIT$TSTIL
  0
ATTRIB
  8
AIT$HILFE
  5
20C38
 10
-643.8492401644419
 20
-229.094168491709
 30
0.0
 40
2.0
  1
-
  2
AIT$MERKER-7
 70
     1
 41
0.8
  7
AIT$TSTIL
  0
ATTRIB
  8
AIT$HILFE
  5
20C39
 10
-643.8492401644419
 20
-226.094168491709
 30
0.0
 40
2.0
  1
-
  2
AIT$MERKER-8
 70
     1
 41
0.8
  7
AIT$TSTIL
  0
ATTRIB
  8
AIT$HILFE
  5
20C3A
 10
-643.8492401644419
 20
-223.094168491709
 30
0.0
 40
2.0
  1
-
  2
AIT$MERKER-9
 70
     1
 41
0.8
  7
AIT$TSTIL
  0
SEQEND
  8
0
  5
20C3B
  0
INSERT
  8
0
  5
20C51
 66
     1
  2
AIT$MERK
 10
630.0
 20
0.0
 30
0.0
  0
ATTRIB
  8
AIT$HILFE
  5
20C52
 10
630.831091294311
 20
-26.76290463692043
 30
0.0
 40
2.0
  1
genius11
  2
AIT$HAUTPMENUE
 70
     1
 41
0.8
  7
AIT$TSTIL
  0
ATTRIB
  8
AIT$HILFE
  5
20C53
 10
630.831091294311
 20
-23.76290463692043
 30
0.0
 40
2.0
  1
1.0
  2
AIT$MASSTABSFAKTOR
 70
     1
 41
0.8
  7
AIT$TSTIL
  0
ATTRIB
  8
AIT$HILFE
  5
20C54
 10
630.831091294311
 20
-20.76290463692043
 30
0.0
 40
2.0
  1
0
  2
AIT$LETZTE-POSITION
 70
     1
 41
0.8
  7
AIT$TSTIL
  0
ATTRIB
  8
AIT$HILFE
  5
20C55
 10
630.831091294311
 20
-17.76290463692043
 30
0.0
 40
2.0
  1
0
  2
AIT$MERKER-4
 70
     1
 41
0.8
  7
AIT$TSTIL
  0
ATTRIB
  8
AIT$HILFE
  5
20C56
 10
630.831091294311
 20
-14.76290463692043
 30
0.0
 40
2.0
  1
0
  2
AIT$MERKER-5
 70
     1
 41
0.8
  7
AIT$TSTIL
  0
ATTRIB
  8
AIT$HILFE
  5
20C57
 10
630.831091294311
 20
-11.76290463692043
 30
0.0
 40
2.0
  1
1
  2
AIT$MERKER-6
 70
     1
 41
0.8
  7
AIT$TSTIL
  0
ATTRIB
  8
AIT$HILFE
  5
20C58
 10
630.831091294311
 20
-8.762904636920433
 30
0.0
 40
2.0
  1
-
  2
AIT$MERKER-7
 70
     1
 41
0.8
  7
AIT$TSTIL
  0
ATTRIB
  8
AIT$HILFE
  5
20C59
 10
630.831091294311
 20
-5.762904636920433
 30
0.0
 40
2.0
  1
-
  2
AIT$MERKER-8
 70
     1
 41
0.8
  7
AIT$TSTIL
  0
ATTRIB
  8
AIT$HILFE
  5
20C5A
 10
630.831091294311
 20
-2.762904636920433
 30
0.0
 40
2.0
  1
-
  2
AIT$MERKER-9
 70
     1
 41
0.8
  7
AIT$TSTIL
  0
SEQEND
  8
0
  5
20C5B
  0
TEXT
  8
6
  5
20D4A
 10
1214.134033077491
 20
504.0029489534702
 30
0.0
 40
3.5
  1
  
  0
TEXT
  8
6
  5
20D4B
 10
1214.134033077491
 20
494.0029489534702
 30
0.0
 40
3.5
  1
  
  0
TEXT
  8
6
  5
20D4C
 10
1214.134033077491
 20
484.0029489534702
 30
0.0
 40
3.5
  1
  
  0
TEXT
  8
6
  5
20D4D
 10
1484.712884945115
 20
756.1607295555763
 30
0.0
 40
3.5
  1
   
  0
TEXT
  8
6
  5
20D4E
 10
1484.712884945115
 20
767.1607295555763
 30
0.0
 40
3.5
  1
   
  0
TEXT
  8
6
  5
20D4F
 10
1484.712884945115
 20
778.1607295555763
 30
0.0
 40
3.5
  1
   
  0
TEXT
  8
6
  5
20D50
 10
1028.517866050814
 20
486.310076523191
 30
0.0
 40
3.5
  1
   
  0
TEXT
  8
6
  5
20D51
 10
1028.517866050814
 20
497.310076523191
 30
0.0
 40
3.5
  1
   
  0
TEXT
  8
6
  5
20D52
 10
1028.517866050814
 20
508.310076523191
 30
0.0
 40
3.5
  1
   
  0
VIEWPORT
  8
0
  5
3A3
 67
     1
 68
     1
 10
7.082164328657314
 20
6.0
 30
0.0
 40
14.16432865731462
 41
12.0
 69
     1
1001
ACAD
1000
MVIEW
1002
{
1070
    16
1010
0.0
1020
0.0
1030
0.0
1010
0.0
1020
0.0
1030
1.0
1040
0.0
1040
12.0
1040
7.082164328657314
1040
6.0
1040
50.0
1040
0.0
1040
0.0
1070
     0
1070
   100
1070
     1
1070
     1
1070
     0
1070
     0
1070
     0
1070
     0
1040
0.0
1040
0.0
1040
0.0
1040
7.0
1040
7.0
1040
10.0
1040
10.0
1070
     0
1002
{
1002
}
1002
}
  0
ENDSEC
  0
EOF
